999
dxflib 2.2.0.0
  0
SECTION
  2
HEADER
  9
$ACADVER
  1
AC1009
  9
$SPLINESEGS
 70
8
  9
$DIMEXE
 40
1.25
  9
$DIMZIN
 70
8
  9
$GRIDMODE
 70
1
  9
$DIMASZ
 40
2.5
  9
$DIMGAP
 40
0.625
  9
$DIMTXT
 40
2.5
  9
$GRIDUNIT
 10
0.0
 20
0.0
  9
$DIMEXO
 40
0.625
  9
$LUPREC
 70
4
  9
$CLAYER
  8
aussen
  9
$AUPREC
 70
2
  9
$PLIMMIN
 10
0.0
 20
0.0
  9
$LUNITS
 70
2
  9
$PLIMMAX
 10
297.0
 20
210.0
  9
$DIMSTYLE
  2
Standard
  9
$DIMBLK
  1

  9
$AUNITS
 70
0
  9
$CLAYER
  8
0
  0
ENDSEC
  0
SECTION
  2
TABLES
  0
TABLE
  2
VPORT
 70
1
  0
VPORT
  2
*Active
 70
0
 10
0.0
 20
0.0
 11
1.0
 21
1.0
 12
286.30555555555549
 22
148.5
 13
0.0
 23
0.0
 14
10.0
 24
10.0
 15
10.0
 25
10.0
 16
0.0
 26
0.0
 36
1.0
 17
0.0
 27
0.0
 37
0.0
 40
297.0
 41
1.92798353909465
 42
50.0
 43
0.0
 44
0.0
 50
0.0
 51
0.0
 71
0
 72
100
 73
1
 74
3
 75
1
 76
1
 77
0
 78
0
  0
ENDTAB
  0
TABLE
  2
LTYPE
 70
19
  0
LTYPE
  2
CONTINUOUS
 70
0
  3
Solid line
 72
65
 73
0
 40
0.0
  0
LTYPE
  2
DOT
 70
0
  3
Dot . . . . . . . . . . . . . . . . . . . . . .
 72
65
 73
2
 40
6.3499999999999996
 49
0.0
 49
-6.3499999999999996
  0
LTYPE
  2
DOT2
 70
0
  3
Dot (.5x) .....................................
 72
65
 73
2
 40
3.1749999999999998
 49
0.0
 49
-3.1749999999999998
  0
LTYPE
  2
DOTX2
 70
0
  3
Dot (2x) .  .  .  .  .  .  .  .  .  .  .  .  .
 72
65
 73
2
 40
12.699999999999999
 49
0.0
 49
-12.699999999999999
  0
LTYPE
  2
DASHED
 70
0
  3
Dashed __ __ __ __ __ __ __ __ __ __ __ __ __ _
 72
65
 73
2
 40
19.050000000000001
 49
12.699999999999999
 49
-6.3499999999999996
  0
LTYPE
  2
DASHED2
 70
0
  3
Dashed (.5x) _ _ _ _ _ _ _ _ _ _ _ _ _ _ _ _ _
 72
65
 73
2
 40
9.5250000000000004
 49
6.3499999999999996
 49
-3.1749999999999998
  0
LTYPE
  2
DASHEDX2
 70
0
  3
Dashed (2x) ____  ____  ____  ____  ____  ___
 72
65
 73
2
 40
38.100000000000001
 49
25.399999999999999
 49
-12.699999999999999
  0
LTYPE
  2
DASHDOT
 70
0
  3
Dash dot __ . __ . __ . __ . __ . __ . __ . __
 72
65
 73
4
 40
25.399999999999999
 49
12.699999999999999
 49
-6.3499999999999996
 49
0.0
 49
-6.3499999999999996
  0
LTYPE
  2
DASHDOT2
 70
0
  3
Dash dot (.5x) _._._._._._._._._._._._._._._.
 72
65
 73
4
 40
12.699999999999999
 49
6.3499999999999996
 49
-3.1749999999999998
 49
0.0
 49
-3.1749999999999998
  0
LTYPE
  2
DASHDOTX2
 70
0
  3
Dash dot (2x) ____  .  ____  .  ____  .  ___
 72
65
 73
4
 40
50.799999999999997
 49
25.399999999999999
 49
-12.699999999999999
 49
0.0
 49
-12.699999999999999
  0
LTYPE
  2
DIVIDE
 70
0
  3
Divide ____ . . ____ . . ____ . . ____ . . ____
 72
65
 73
6
 40
31.75
 49
12.699999999999999
 49
-6.3499999999999996
 49
0.0
 49
-6.3499999999999996
 49
0.0
 49
-6.3499999999999996
  0
LTYPE
  2
DIVIDE2
 70
0
  3
Divide (.5x) __..__..__..__..__..__..__..__.._
 72
65
 73
6
 40
15.875
 49
6.3499999999999996
 49
-3.1749999999999998
 49
0.0
 49
-3.1749999999999998
 49
0.0
 49
-3.1749999999999998
  0
LTYPE
  2
DIVIDEX2
 70
0
  3
Divide (2x) ________  .  .  ________  .  .  _
 72
65
 73
6
 40
63.5
 49
25.399999999999999
 49
-12.699999999999999
 49
0.0
 49
-12.699999999999999
 49
0.0
 49
-12.699999999999999
  0
LTYPE
  2
CENTER
 70
0
  3
Center ____ _ ____ _ ____ _ ____ _ ____ _ ____
 72
65
 73
4
 40
50.799999999999997
 49
31.75
 49
-6.3499999999999996
 49
6.3499999999999996
 49
-6.3499999999999996
  0
LTYPE
  2
CENTER2
 70
0
  3
Center (.5x) ___ _ ___ _ ___ _ ___ _ ___ _ ___
 72
65
 73
4
 40
28.574999999999999
 49
19.050000000000001
 49
-3.1749999999999998
 49
3.1749999999999998
 49
-3.1749999999999998
  0
LTYPE
  2
CENTERX2
 70
0
  3
Center (2x) ________  __  ________  __  _____
 72
65
 73
4
 40
101.59999999999999
 49
63.5
 49
-12.699999999999999
 49
12.699999999999999
 49
-12.699999999999999
  0
LTYPE
  2
BORDER
 70
0
  3
Border __ __ . __ __ . __ __ . __ __ . __ __ .
 72
65
 73
6
 40
44.450000000000003
 49
12.699999999999999
 49
-6.3499999999999996
 49
12.699999999999999
 49
-6.3499999999999996
 49
0.0
 49
-6.3499999999999996
  0
LTYPE
  2
BORDER2
 70
0
  3
Border (.5x) __.__.__.__.__.__.__.__.__.__.__.
 72
65
 73
6
 40
22.225000000000001
 49
6.3499999999999996
 49
-3.1749999999999998
 49
6.3499999999999996
 49
-3.1749999999999998
 49
0.0
 49
-3.1749999999999998
  0
LTYPE
  2
BORDERX2
 70
0
  3
Border (2x) ____  ____  .  ____  ____  .  ___
 72
65
 73
6
 40
88.900000000000006
 49
25.399999999999999
 49
-12.699999999999999
 49
25.399999999999999
 49
-12.699999999999999
 49
0.0
 49
-12.699999999999999
  0
ENDTAB
  0
TABLE
  2
LAYER
 70
3
  0
LAYER
  2
0
 70
0
 62
5
  6
CONTINUOUS
  0
LAYER
  2
loch
 70
0
 62
7
  6
CONTINUOUS
  0
LAYER
  2
aussen
 70
0
 62
1
  6
CONTINUOUS
  0
ENDTAB
  0
TABLE
  2
STYLE
 70
1
  0
STYLE
  2
Standard
 70
0
 40
0.0
 41
0.75
 50
0.0
 71
0
 42
2.5
  3
txt
  4

  0
ENDTAB
  0
TABLE
  2
VIEW
 70
0
  0
ENDTAB
  0
TABLE
  2
UCS
 70
0
  0
ENDTAB
  0
TABLE
  2
APPID
 70
1
  0
APPID
  2
ACAD
 70
0
  0
ENDTAB
  0
TABLE
  2
DIMSTYLE
 70
1
  0
DIMSTYLE
  2
Standard
  3

  4

  5

  6

  7

 40
1.0
 41
2.5
 42
0.625
 43
3.75
 44
1.25
 45
0.0
 46
0.0
 47
0.0
 48
0.0
 70
0
 71
0
 72
0
 73
0
 74
0
 75
0
 76
0
 77
1
 78
8
140
2.5
141
2.5
142
0.0
143
0.03937007874016
144
1.0
145
0.0
146
1.0
147
0.625
170
0
171
3
172
1
173
0
174
0
175
0
176
0
177
0
178
0
  0
ENDTAB
  0
ENDSEC
  0
SECTION
  2
BLOCKS
  0
ENDSEC
  0
SECTION
  2
ENTITIES
  0
CIRCLE
  8
aussen
 10
1.0
 20
-1.0
 30
0.0
 40
1.0
  0
CIRCLE
  8
loch
 10
1.0
 20
-1.0
 30
0.0
 40
1.0
  0
LINE
  8
loch
 10
20.000000000000036
 20
-26.0
 30
0.0
 11
20.000000000000028
 21
-4.9999999999999991
 31
0.0
  0
LINE
  8
loch
 10
20.000000000000028
 20
-4.9999999999999991
 30
0.0
 11
8.0000000000000249
 21
-5.0000000000000018
 31
0.0
  0
LINE
  8
loch
 10
8.0000000000000249
 20
-5.0000000000000018
 30
0.0
 11
8.0
 21
-25.999999999999989
 31
0.0
  0
LINE
  8
loch
 10
8.0
 20
-25.999999999999989
 30
0.0
 11
20.000000000000036
 21
-26.0
 31
0.0
  0
CIRCLE
  8
loch
 10
22.500000000000028
 20
-26.999999999999996
 30
0.0
 40
1.2
  0
CIRCLE
  8
loch
 10
22.500000000000011
 20
-2.9999999999999858
 30
0.0
 40
1.2
  0
CIRCLE
  8
loch
 10
5.5
 20
-2.9999999999999862
 30
0.0
 40
1.2
  0
CIRCLE
  8
loch
 10
5.5000000000000249
 20
-27.0
 30
0.0
 40
1.2
  0
LINE
  8
aussen
 10
3.0000000000000213
 20
-30.0
 30
0.0
 11
3.0
 21
0.0
 31
0.0
  0
LINE
  8
aussen
 10
3.0
 20
0.0
 30
0.0
 11
25.000000000000018
 21
0.0
 31
0.0
  0
LINE
  8
aussen
 10
25.000000000000018
 20
0.0
 30
0.0
 11
25.000000000000036
 21
-30.0
 31
0.0
  0
LINE
  8
aussen
 10
25.000000000000036
 20
-30.0
 30
0.0
 11
3.0000000000000213
 21
-30.0
 31
0.0
  0
LINE
  8
loch
 10
43.999999999999972
 20
-25.999999999999993
 30
0.0
 11
44.000000000000014
 21
-5.0000000000000639
 31
0.0
  0
LINE
  8
loch
 10
44.000000000000014
 20
-5.0000000000000639
 30
0.0
 11
32.000000000000014
 21
-5.000000000000016
 31
0.0
  0
LINE
  8
loch
 10
32.000000000000014
 20
-5.000000000000016
 30
0.0
 11
31.999999999999979
 21
-26.000000000000004
 31
0.0
  0
LINE
  8
loch
 10
31.999999999999979
 20
-26.000000000000004
 30
0.0
 11
43.999999999999972
 21
-25.999999999999993
 31
0.0
  0
CIRCLE
  8
loch
 10
46.500000000000007
 20
-27.000000000000014
 30
0.0
 40
1.2
  0
CIRCLE
  8
loch
 10
46.499999999999986
 20
-2.9999999999998672
 30
0.0
 40
1.2
  0
CIRCLE
  8
loch
 10
29.5
 20
-3.0000000000000169
 30
0.0
 40
1.2
  0
CIRCLE
  8
loch
 10
29.500000000000036
 20
-27.000000000000036
 30
0.0
 40
1.2
  0
LINE
  8
aussen
 10
26.999999999999993
 20
-29.999999999999964
 30
0.0
 11
27.0
 21
0.0
 31
0.0
  0
LINE
  8
aussen
 10
27.0
 20
0.0
 30
0.0
 11
49.000000000000014
 21
0.0
 31
0.0
  0
LINE
  8
aussen
 10
49.000000000000014
 20
0.0
 30
0.0
 11
49.000000000000014
 21
-30.000000000000046
 31
0.0
  0
LINE
  8
aussen
 10
49.000000000000014
 20
-30.000000000000046
 30
0.0
 11
26.999999999999993
 21
-29.999999999999964
 31
0.0
  0
CIRCLE
  8
loch
 10
18.300000000000011
 20
-50.447818472546174
 30
0.0
 40
1.3
  0
CIRCLE
  8
loch
 10
22.600000000000019
 20
-42.999999999999993
 30
0.0
 40
1.3
  0
CIRCLE
  8
loch
 10
18.300000000000011
 20
-35.552181527453833
 30
0.0
 40
1.3
  0
CIRCLE
  8
loch
 10
9.7000000000000171
 20
-35.552181527453833
 30
0.0
 40
1.3
  0
CIRCLE
  8
loch
 10
5.4000000000000341
 20
-43.0
 30
0.0
 40
1.3
  0
LINE
  8
loch
 10
11.699999999999989
 20
-49.07947366142826
 30
0.0
 11
11.700000000000042
 21
-51.899999999999991
 31
0.0
  0
LINE
  8
loch
 10
11.700000000000042
 20
-51.899999999999991
 30
0.0
 11
16.299999999999997
 21
-51.899999999999999
 31
0.0
  0
ARC
  8
loch
 10
14.000000000000007
 20
-43.000000000000007
 30
0.0
 40
6.5
 50
290.72274438159008
 51
249.27725561840992
  0
LINE
  8
loch
 10
16.300000000000022
 20
-49.079473661428267
 30
0.0
 11
16.299999999999997
 21
-51.899999999999999
 31
0.0
  0
CIRCLE
  8
loch
 10
9.6999999999999993
 20
-50.447819999999993
 30
0.0
 40
1.3
  0
CIRCLE
  8
aussen
 10
14.000000000000007
 20
-43.000000000000007
 30
0.0
 40
11.0
  0
CIRCLE
  8
loch
 10
42.299999999999976
 20
-50.447818472546132
 30
0.0
 40
1.3
  0
CIRCLE
  8
loch
 10
46.60000000000003
 20
-43.000000000000021
 30
0.0
 40
1.3
  0
CIRCLE
  8
loch
 10
42.300000000000004
 20
-35.552181527453804
 30
0.0
 40
1.3
  0
CIRCLE
  8
loch
 10
33.699999999999989
 20
-35.552181527453854
 30
0.0
 40
1.3
  0
CIRCLE
  8
loch
 10
29.399999999999984
 20
-43.000000000000007
 30
0.0
 40
1.3
  0
LINE
  8
loch
 10
35.700000000000003
 20
-49.079473661428274
 30
0.0
 11
35.699999999999967
 21
-51.900000000000034
 31
0.0
  0
LINE
  8
loch
 10
35.699999999999967
 20
-51.900000000000034
 30
0.0
 11
40.300000000000004
 21
-51.899999999999963
 31
0.0
  0
ARC
  8
loch
 10
38.000000000000007
 20
-43.000000000000014
 30
0.0
 40
6.5
 50
290.72274438159008
 51
249.27725561840992
  0
LINE
  8
loch
 10
40.29999999999999
 20
-49.079473661428288
 30
0.0
 11
40.300000000000004
 21
-51.899999999999963
 31
0.0
  0
CIRCLE
  8
loch
 10
33.700000000000003
 20
-50.447819999999979
 30
0.0
 40
1.3
  0
CIRCLE
  8
aussen
 10
38.000000000000007
 20
-43.000000000000014
 30
0.0
 40
11.0
  0
CIRCLE
  8
loch
 10
18.299999999999976
 20
-59.55218152745384
 30
0.0
 40
1.3
  0
CIRCLE
  8
loch
 10
22.599999999999966
 20
-67.0
 30
0.0
 40
1.3
  0
CIRCLE
  8
loch
 10
18.300000000000022
 20
-74.447818472546174
 30
0.0
 40
1.3
  0
CIRCLE
  8
loch
 10
9.6999999999999957
 20
-74.447818472546189
 30
0.0
 40
1.3
  0
CIRCLE
  8
loch
 10
5.3999999999999986
 20
-67.0
 30
0.0
 40
1.3
  0
LINE
  8
loch
 10
11.699999999999994
 20
-60.920526338571733
 30
0.0
 11
11.699999999999987
 21
-58.099999999999994
 31
0.0
  0
LINE
  8
loch
 10
11.699999999999987
 20
-58.099999999999994
 30
0.0
 11
16.300000000000001
 21
-58.100000000000009
 31
0.0
  0
ARC
  8
loch
 10
14.0
 20
-67.0
 30
0.0
 40
6.5
 50
110.72274438159006
 51
69.277255618409939
  0
LINE
  8
loch
 10
16.299999999999955
 20
-60.920526338571733
 30
0.0
 11
16.300000000000001
 21
-58.100000000000009
 31
0.0
  0
CIRCLE
  8
loch
 10
9.6999999999999957
 20
-59.552179999999993
 30
0.0
 40
1.3
  0
CIRCLE
  8
aussen
 10
14.0
 20
-67.0
 30
0.0
 40
11.0
  0
CIRCLE
  8
loch
 10
42.299999999999969
 20
-59.552181527453826
 30
0.0
 40
1.3
  0
CIRCLE
  8
loch
 10
46.600000000000016
 20
-66.999999999999986
 30
0.0
 40
1.3
  0
CIRCLE
  8
loch
 10
42.300000000000004
 20
-74.447818472546174
 30
0.0
 40
1.3
  0
CIRCLE
  8
loch
 10
33.69999999999996
 20
-74.447818472546203
 30
0.0
 40
1.3
  0
CIRCLE
  8
loch
 10
29.399999999999977
 20
-67.0
 30
0.0
 40
1.3
  0
LINE
  8
loch
 10
35.699999999999996
 20
-60.920526338571733
 30
0.0
 11
35.69999999999996
 21
-58.100000000000009
 31
0.0
  0
LINE
  8
loch
 10
35.69999999999996
 20
-58.100000000000009
 30
0.0
 11
40.299999999999997
 21
-58.099999999999994
 31
0.0
  0
ARC
  8
loch
 10
37.999999999999964
 20
-67.0
 30
0.0
 40
6.5
 50
110.72274438159006
 51
69.277255618409939
  0
LINE
  8
loch
 10
40.29999999999999
 20
-60.920526338571733
 30
0.0
 11
40.299999999999997
 21
-58.099999999999994
 31
0.0
  0
CIRCLE
  8
loch
 10
33.699999999999982
 20
-59.552179999999993
 30
0.0
 40
1.3
  0
CIRCLE
  8
aussen
 10
37.999999999999964
 20
-67.0
 30
0.0
 40
11.0
  0
CIRCLE
  8
loch
 10
61.999999999999972
 20
-55.0
 30
0.0
 40
2.1000000000000001
  0
CIRCLE
  8
loch
 10
70.5
 20
-43.000000000000014
 30
0.0
 40
1.2
  0
CIRCLE
  8
loch
 10
70.5
 20
-67.000000000000014
 30
0.0
 40
1.2
  0
CIRCLE
  8
loch
 10
53.500000000000028
 20
-67.0
 30
0.0
 40
1.2
  0
CIRCLE
  8
loch
 10
53.500000000000057
 20
-43.0
 30
0.0
 40
1.2
  0
LINE
  8
aussen
 10
51.0
 20
-40.0
 30
0.0
 11
51.0
 21
-70.0
 31
0.0
  0
LINE
  8
aussen
 10
51.0
 20
-70.0
 30
0.0
 11
72.999999999999972
 21
-70.0
 31
0.0
  0
LINE
  8
aussen
 10
72.999999999999972
 20
-70.0
 30
0.0
 11
73.000000000000028
 21
-40.0
 31
0.0
  0
LINE
  8
aussen
 10
73.000000000000028
 20
-40.0
 30
0.0
 11
51.0
 21
-40.0
 31
0.0
  0
CIRCLE
  8
loch
 10
61.0
 20
-45.0
 30
0.0
 40
2.2999999999999998
  0
CIRCLE
  8
loch
 10
61.0
 20
-65.0
 30
0.0
 40
2.2999999999999998
  0
CIRCLE
  8
loch
 10
86.000000000000028
 20
-54.999999999999986
 30
0.0
 40
2.1000000000000001
  0
CIRCLE
  8
loch
 10
94.499999999999986
 20
-43.0
 30
0.0
 40
1.2
  0
CIRCLE
  8
loch
 10
94.499999999999915
 20
-67.000000000000028
 30
0.0
 40
1.2
  0
CIRCLE
  8
loch
 10
77.499999999999972
 20
-67.0
 30
0.0
 40
1.2
  0
CIRCLE
  8
loch
 10
77.5
 20
-43.000000000000014
 30
0.0
 40
1.2
  0
LINE
  8
aussen
 10
75.0
 20
-40.0
 30
0.0
 11
75.0
 21
-70.0
 31
0.0
  0
LINE
  8
aussen
 10
75.0
 20
-70.0
 30
0.0
 11
96.999999999999943
 21
-70.000000000000028
 31
0.0
  0
LINE
  8
aussen
 10
96.999999999999943
 20
-70.000000000000028
 30
0.0
 11
96.999999999999943
 21
-40.000000000000028
 31
0.0
  0
LINE
  8
aussen
 10
96.999999999999943
 20
-40.000000000000028
 30
0.0
 11
75.0
 21
-40.0
 31
0.0
  0
CIRCLE
  8
loch
 10
84.999999999999943
 20
-45.0
 30
0.0
 40
2.2999999999999998
  0
CIRCLE
  8
loch
 10
84.999999999999943
 20
-65.0
 30
0.0
 40
2.2999999999999998
  0
LINE
  8
loch
 10
68.000000000000014
 20
-4.0
 30
0.0
 11
68.000000000000014
 21
-24.999999999999972
 31
0.0
  0
LINE
  8
loch
 10
68.000000000000014
 20
-24.999999999999972
 30
0.0
 11
56.000000000000043
 21
-25.0
 31
0.0
  0
LINE
  8
loch
 10
56.000000000000043
 20
-25.0
 30
0.0
 11
56.000000000000014
 21
-4.0
 31
0.0
  0
LINE
  8
loch
 10
56.000000000000014
 20
-4.0
 30
0.0
 11
68.000000000000014
 21
-4.0
 31
0.0
  0
CIRCLE
  8
loch
 10
70.500000000000014
 20
-3.0
 30
0.0
 40
1.2
  0
CIRCLE
  8
loch
 10
70.500000000000014
 20
-27.0
 30
0.0
 40
1.2
  0
CIRCLE
  8
loch
 10
53.499999999999957
 20
-27.0
 30
0.0
 40
1.2
  0
CIRCLE
  8
loch
 10
53.500000000000043
 20
-3.0
 30
0.0
 40
1.2
  0
LINE
  8
aussen
 10
51.000000000000014
 20
0.0
 30
0.0
 11
51.0
 21
-30.0
 31
0.0
  0
LINE
  8
aussen
 10
51.0
 20
-30.0
 30
0.0
 11
73.000000000000043
 21
-30.0
 31
0.0
  0
LINE
  8
aussen
 10
73.000000000000043
 20
-30.0
 30
0.0
 11
73.000000000000071
 21
0.0
 31
0.0
  0
LINE
  8
aussen
 10
73.000000000000071
 20
0.0
 30
0.0
 11
51.000000000000014
 21
0.0
 31
0.0
  0
LINE
  8
loch
 10
91.999999999999986
 20
-4.0000000000000284
 30
0.0
 11
92.000000000000014
 21
-25.0
 31
0.0
  0
LINE
  8
loch
 10
92.000000000000014
 20
-25.0
 30
0.0
 11
79.999999999999901
 21
-25.000000000000028
 31
0.0
  0
LINE
  8
loch
 10
79.999999999999901
 20
-25.000000000000028
 30
0.0
 11
80.000000000000014
 21
-4.0
 31
0.0
  0
LINE
  8
loch
 10
80.000000000000014
 20
-4.0
 30
0.0
 11
91.999999999999986
 21
-4.0000000000000284
 31
0.0
  0
CIRCLE
  8
loch
 10
94.500000000000014
 20
-3.0
 30
0.0
 40
1.2
  0
CIRCLE
  8
loch
 10
94.499999999999901
 20
-27.000000000000028
 30
0.0
 40
1.2
  0
CIRCLE
  8
loch
 10
77.500000000000043
 20
-27.0
 30
0.0
 40
1.2
  0
CIRCLE
  8
loch
 10
77.499999999999957
 20
-3.0000000000000284
 30
0.0
 40
1.2
  0
LINE
  8
aussen
 10
75.000000000000043
 20
0.0
 30
0.0
 11
75.000000000000043
 21
-30.0
 31
0.0
  0
LINE
  8
aussen
 10
75.000000000000043
 20
-30.0
 30
0.0
 11
97.000000000000071
 21
-30.0
 31
0.0
  0
LINE
  8
aussen
 10
97.000000000000071
 20
-30.0
 30
0.0
 11
97.000000000000014
 21
0.0
 31
0.0
  0
LINE
  8
aussen
 10
97.000000000000014
 20
0.0
 30
0.0
 11
75.000000000000043
 21
0.0
 31
0.0
  0
ENDSEC
  0
EOF
